LANDSLIDE by Fleetwood Mac

Difficulty: Blue
Views: 590,040

Fantastic Fleetwood Mac song written and sung by the incredible Stevie Nicks and featuring some beautiful fingerpicking acoustic guitar from Linsey Buckingham.

 

Revised Chorus TAB

So though I take great care and attention when I write my songbooks, there are occasions when I start working a song to do a lesson then I decide to make a few changes. I'll get it revised for future editions, until then, here's the amended tab... I've basically just simplified it a bit and tried to merge some of the (many) parts into one so it sounds more like the album.

..G...............D7/F#..........Em..................................

|-------3----------------------|-------0------------0----------------|
|-1^0-------------3------1-----|-1^0-----------3---------0-----------|
|-----------0-------2------2---|-----------0-------------------0-----|
|-----0-------0-------0------0-|-----2-------2--------2-----------2--|
|------------------------------|-------------------------------------|
|-3-------3-------2------2-----|-0-------0--------0----------0-------|

 

..C............G/B.................Am..............D/F#............

|---------------------------------|--------------------------------|
|-------1--------3-------3--------|-0^1---1--------1^3---1---------|
|---0--------0-------0-------0----|-----------0--------------2-----|
|-----2--------2-------0-------0--|-----2-------2------0-------0---|
|-3-------3--------2-------2------|-0-------0----------------------|
|---------------------------------|----------------2-------2-------|

ORIGINAL SONG

Grades

Found an issue?

Please submit it. This will help me make constant improvements to better your experience.